Si è verificato un errore nel gadget

lunedì 16 aprile 2012


Questa è "Wish you were here" dei Pink Floyd, spero vi piaccia:

WISH YOU WERE HERE
Intro 1° chitarra:  Fill 1 (questo fill è ripetuto fino all’ingresso della  2° chitarra,  poi  dopo  per  tutta  la  durata  del  fill 2,  fino  all’inizio del cantato) 

----------5--3-----------|-------------------------|
----------5--3-----------|-------------------------|
-------------------------|-------------------------|
------0--2-----3p2p0-----|-------0--2---2--0-------|
---0h2---------------2-0-|----0h2-----------2--0---|
--3----------------------|--3----------------------|

Intro 2°chitarra: Fill 2

--------------------------------3/5-5-3----------------
------3--5--3-------------------3/5-5-3--3/5-5-3-5-3-0-
---2h4-----4---4p2p0---------------------2/4-4-2-4-2-0-
---------------------0----0-0--------------------------
-----------------------1/2-----------------------------
-------------------------------------------------------

------------------------|-------------------------------|
-----3--5--(7)-5-3------|--------3--5----3--------------|
--2h4--------------4--2-|--2 (6)4----(6)4---2-----------|
------------------------|-------------------------------|
------------------------|-------------------------------|
------------------------|-------------------------------|

------------------------|-------------------------------|
------3-5-(7)5-3-5------|-------------------------------|
--2h4-------------------|--2--(6)4--2--0----------------|
------------------------|-------------------------------|
------------------------|-------------------------------|
------------------------|-------------------------------|

Suonare ora solo testi ed accordi:

Sol    Do                         Re
So, so you think you can tell
              Lam                   Sol                          Re
heaven from hell, blue sky from pain. Can you tell a green field, from a 
             Do                    Lam                         Sol
cold steel rail, a smile from a veil? Do you think you can tell? 
                 Do                      Re                    Lam
Did they get you trade, your heroes for ghosts, hot ashes for trees, hot air
          Sol                             Re                Do       
from a cool breeze, cold comfort for change, did you exchange, a walk on 
                 Lam                          Sol
the part of the war, for a lead role in the cage.

1° guitar solo: ripetere fill 1, durante il solo, con sotto gli accordi    Mim  Sol  Mim  Sol  Mim  La  Mim  La

Do                                Re              Lam
How i wish, how i wish you were here. We're just two lost souls swimming
               Sol                Re                                 Do
in a fish bowl, year after year. Running over the same old ground, but have
                         Lam                  Sol
we found the same old fears, wish you were here.

2° guitar solo e outro: Mim  Sol  Mim  Sol  Mim  La  Mim  La  Sol.

Per me sono dei grandi, spero piacciano anche a voi! ;) 

Nessun commento:

Posta un commento